Chord J Rocks Juwita hati [tab]

25 views

Guitar Solo

Guitar 1 ( SONY )

e||-------12----------------------------------||
B||----13----13-15-13p12----------------------||
G||-14-------------------14-13-11h12----------||
D||----------------------------------14-12---||
A||-------------------------------------------||
E||-------------------------------------------||

e||----------------------------------||
B||----------------------------------||
G||---7b8p7h5-7b8p5-----5-7b9----5---||
D||-x---------------7-5--------------||
A||----------------------------------||
E||----------------------------------||

e||---8-----8-----8-------------||
B||-8---8-7---7-6---6-----10-9--||
G||-------------------7-9-------||
D||-----------------------------||
A||-----------------------------||
E||-----------------------------||

e||----------------------------------||
B||-8--------------8-9-10-11-12-13--||
G||------9-8-7-8-9-------------------||
D||----9-----------------------------||
A||----------------------------------||
E||----------------------------------||
                     

e||-------------------------------------12-14/15-14/15-14~-||
B||-15-14/15-13-12h13-10-12/13~---13-15--------------------||
G||--------------------------------------------------------||
D||--------------------------------------------------------||
A||--------------------------------------------------------||
E||--------------------------------------------------------||

Guitar 2 ( IMAN )

e||----------------------------6h7-6h7-----||
B||-----5h6p5---5-6p5----------------------||
G||-6-7-------7-------7-6-3-4--------------||
D||----------------------------------------||
A||----------------------------------------||
E||----------------------------------------||

e||-7--------------------------------------||
B||---8------8---10b11-10b11p10-8----------||
G||-------7------------------------11-9----||
D||----------------------------------------||
A||----------------------------------------||
E||----------------------------------------||

e||------------------------------------------------------------------||
B||------------------------------------------------------------------||
G||-/10----9h10p9----------------------------------------------------||
D||-----12--------12-11-10-9h10p97----------------------------------||
A||---------------------------------108-7h8p7h8p7p5-----------------||
E||--------------------------------------------------8-7p5h7-8-7-8---||

Created by Aldo