Chord Merpati Tak Selamanya Selingkuh Itu Indah [Tab]

217 views

Artis : Merpati Band
Song : Tak selamanya selingkuh itu indah

Tablature Intro

     F           Am                             Bb                    Bbm     
e|---------------------------------------------------------------------------------------
b|-11~-10-10--6/8-8/10-11----10-10---6/8-8/10-11/13-11-11-10-10-8-6--1-1/2-2/4-4/6-6/8-3~
g|---------------------------------------------------------------------------------------
d|---------------------------------------------------------------------------------------
a|---------------------------------------------------------------------------------------
e|---------------------------------------------------------------------------------------

Solo
     F                              Am        
e|-----------8-----------------8--10/12------------------
b|-10p8--8-10-10-8----8h10-8-----------------------------
g|-----10----------10--------10--------10-9--7-5-7h9-7-5-
d|-------------------------------------------------------
a|-------------------------------------------------------
e|-------------------------------------------------------

     Bbm                             C
e|---------------------------------------------------10~-
b|----------------------6-------6-8-8/10--/11-/13-10-----
g|--------5-6-8-6-5-6-8---8-6-8--------------------------
d|--5-7-8------------------------------------------------
a|-------------------------------------------------------
e|-------------------------------------------------------

                Am               Dm              Gm
e|-8------12--13-12--------------------------------------
b|---10-9-----------8-10--8-6-5--8---6-5-6---6-5---5-6---
g|-----------------------------------------------7-------
d|-------------------------------------------------------
a|-------------------------------------------------------
e|-------------------------------------------------------

                            Bbm             F
e|-------------------------------------------------------
b|-8-8/10-8-6-65-53-31--1-2-2/4-4/6-6/8-6~------------
g|-------------------------------------------------------
d|-------------------------------------------------------
a|-------------------------------------------------------
e|-------------------------------------------------------

Comments are closed.

Author: 
    author