Chord Peterpan Walau Habis Terang [Tab]

150 views

Intro: D A Bm G (2x)
E|--------------------------------------------------------------5--9/10--10--10--9--7--5--
B|--10--10--10--8--8--8--7--5--5--5--5--7--7--7--5--7--7--7--7----------------------------
G|----------------------------------------------------------------------------------------
D|----------------------------------------------------------------------------------------
A|----------------------------------------------------------------------------------------
E|----------------------------------------------------------------------------------------

E|-----------------------------------------------------------------------------
B|--10--10--10--8--8--8--7--5--5--5--5--7--7--7--5--7--7--7--7--5--5--5--3-----
G|--------------------------------------------------------------------------4--
D|-----------------------------------------------------------------------------
A|-----------------------------------------------------------------------------
E|-----------------------------------------------------------------------------

Bm        F#m
Ku terbiasa
G                 D
Tersenyum tenang
          Bm        F#m
Walau aa... a a aah…
G            D
Hatiku menangis
Bm           F#m
Kaulah cerita
G             D
Tertulis dengan pasti
Bm F#m        G              A
Selamanya     Dalam Fikiranku

Intro: D A Bm G (2x)
E|--------------------------------------------------------------5--9/10--10--10--9--7--5--
B|--10--10--10--8--8--8--7--5--5--5--5--7--7--7--5--7--7--7--7----------------------------
G|----------------------------------------------------------------------------------------
D|----------------------------------------------------------------------------------------
A|----------------------------------------------------------------------------------------
E|----------------------------------------------------------------------------------------

E|-----------------------------------------------------------------------------
B|--10--10--10--8--8--8--7--5--5--5--5--7--7--7--5--7--7--7--7--5--5--5--3-----
G|--------------------------------------------------------------------------4--
D|-----------------------------------------------------------------------------
A|-----------------------------------------------------------------------------
E|-----------------------------------------------------------------------------

Bm      F#m
Peluk Tubuh ku
G          D
Untuk Sejenak
Bm      F#m
Dan biarkan kita
G               D
Memudar dengan pasti
Bm      F#m
Biarkan  semua 
G              D
Seperti seharusnya

Bm     F#m
Takkan pernah 
G               D
Menjadi milikku

# G            A
Lupakan semua
      G          A
Tinggalkan ini
G             A
Ku ’kan tenang
G       A
Dan kau kan pergi

Reff: D          A            Bm       G
Berjalanlah walau habis terang
       D         A       A/C#  G
Ambil  Cahaya Cinta ku terangi jalan mu
D        A       Bm     G
Di antara beribu lainnya
          D
Kau tetap...
          A
Kau tetap...
          Bm
Kau tetap...
          G
Benderang
(Maen pas Reff)
E|--------------------------------------------------------------5--9/10--10--10--9--7--5--
B|--10--10--10--8--8--8--7--5--5--5--5--7--7--7--5--7--7--7--7----------------------------
G|----------------------------------------------------------------------------------------
D|----------------------------------------------------------------------------------------
A|----------------------------------------------------------------------------------------
E|----------------------------------------------------------------------------------------

E|-----------------------------------------------------------------------------
B|--10--10--10--8--8--8--7--5--5--5--5--7--7--7--5--7--7--7--7--5--5--5--3-----
G|--------------------------------------------------------------------------4--
D|-----------------------------------------------------------------------------
A|-----------------------------------------------------------------------------
E|-----------------------------------------------------------------------------

Intro: D A Bm G (2x)

E|-------------------------------------------------------------------------------
B|-------------------------------------------------------------------------------
G|--------------------------------------------------------2--6/7--7--7--6--4--2--
D|--7--7--7--5--5--5--4--2--2--2--2--4--4--4--2--4--4--4-------------------------
A|-------------------------------------------------------------------------------
E|-------------------------------------------------------------------------------

E|------------------------------------------------------------------
B|--10--10--10--8--10--8--87---------------------------------------
G|-----------------------------9--9--9--7--7--7--6--6-----7--9--11--
D|-----------------------------------------------------9------------
A|------------------------------------------------------------------
E|------------------------------------------------------------------

E|----------------------------------------
B|----------------------------------------
G|----------------------------------------
D|--11--9--12--9--11--7--9--5--7--54-----
A|----------------------------------------
E|----------------------------------------
Back to #,Reff.
D - A  -Bm    - G                 D
                  Ooww…  aa ahh